Chords Frank Sinatra - You And The Night And The Music

Andra Ramadhan
7 months ago Last Updated 7 months ago

Ganti Nada Dasar

Intro

e|--------------|--------------|-----------3--------|--------3--------|
B|--3--4--2--3--|--3--4--2--3--|--3--4--2--3--3-----|-----4--4--4--9--|
G|--3--3--2--3--|--3--3--2--3--|--3--------3--3--5--|--5--5--5--5--8--|
D|--5--5--4--5--|--5--5--4--5--|--5--------5--5-----|--6-----6--6--7--|
A|--------------|--------------|--------------------|--------------8--|
E|--------------|--------------|--------------------|-----------------|
 
[Verse]
A#m6                        Cm7b5 Faug
You and the night and the mu      sic
Bbm7           F7b5      Bb7 Ebm7
Fill me with flaming de    sire
Ebm6               F7           Faug    Bb6
Setting my being completely on      fire
A#m6                        Cm7b5 Faug
You and the night and the mu      sic
A#m6             Bdim         Ebm7
Thrill me, but will we be one
Cm7b5                     Adim        A#maj7
After the night and the music are done?
 
[Bridge]
Bb6          Gb7/Bb
Until the pale light of dawn and in daylight
F9               Eaug        F7
Hearts will be throbbing guitars
Gb7                         Gm7b5     Gdim F7/A Gb7/Bb     F7/C
Morning will come without warning and    take away the stars
A#m6                      Cm7b5 Faug
If we must live for the mo      ment
A#m7            Bdim        Ebm7
Love till the moment is through
Cm7b5       Bdim            A#m6     Gm7b5
After the night and the music die
      Gb7 Adim A#6
Will I     have you?
 
[Instrumental]
A#m6 Cm7b5 Faug
Bbm7 F7b5 Bb7 Ebm7
Ebm6 F7 Faug    Bb6 B6 C6 G7
 
[Verse]
Cm6                         Dm7b5    Gaug
You and the night and the music
Cm6              Bbdim        Ab6
Thrill me, but will we be one
Dm7b5                     Bdim        Cmaj7    C6
After the night and the music are done?
 
[Bridge]
C6          Ab7
Until the pale light of dawn and in daylight
G9               Gbaug       G7
Hearts will be throbbing guitars
Ab7                         Am7b5     Adim G7     Ab7        G7       Bdim
Morning will come without warning and    take away the stars
Cm6                       Dm7b5     Gaug
If we must live for the moment
Cm7             Bbdim       Ab6
Love till the moment is through
Dm7b5       Bdim            Cm6     Am7b5
After the night and the music die
      Ab7 Abdim    C6
Will I     have     you?
 
[Outro]
e|--------------------------4--3--|
B|--------------------------4--3--|
G|--5--7--4--5--7--4--5--5--3--2--|
D|--------------------------3--2--|
A|--3--5--2--3--5--2--3--3--4--3--|
E|--------------------------4--3--|

Artist:

Genre:

Language: